Ieškoti pagal abėcėlę
Atlikėjai:
 
Pradžia » Dainos

Love You In Vain (Accords) žodžiai Pridėti į grojaraštį

Alison Krauss

(Iš albumo Ost Cold Mountain)

Dainos video dar nėra

Alison Krauss - Love You In Vain (Accords) žodžiai

18ea
Alison Krauss and Union Station
(John Pennell)
From (1989)

CHORD CHART (capo 1)
INTRO:
|D |D |G |G |A |A |G |D |D |
|D |D |G |G |A |A |A |D |D |

VERSE:
|D |D |G |G |A |A |G |D |D |
|D |D |G |G |A |A |A |D |D |

|A |A |G |D |A |A |D |D |
|B |B |Em |Em |A |A |A |A |

|D |D |G |G |A |A |G |D |D |
|D |D |G |G |A |A |A |D |D |

INTRO
_ _____ ___ ___ ____
|_| |_|_|_| | | | | _ | | | |_| |
| | | | | | | | | | |-| | | | | | |
|----------------|--------------|-----------------|----------------|
|----------------|--------------|-----------------|----------------|
|----------------|-----------0--|-2----0-2-0------|-0--------------|
|---------0-2-3--|-4-----4------|-------//---4--|-------0-2--0---|
|---0-2-4--------|--------------|--------H-P------|--------/------|
|----------------|--------------|-----------------|---------H------|

___ ____ ___ _ _____ ___
| | | | | |_| |_| | |_| |_|_|_| |_| |
| | /| | | | | | | | | /| | | | | | | | | |
|-------------|--------------|-----------------|-------------------|
|-------------|--------------|-----------------|-------------------|
|-------------|--------------|-----------------|-0-----0-----------|
|-----0-------|-------2------|---0-2-------2-4-|---4-2----4-2-0----|
|-2---------2-|-0--------0-2-|-4---------------|-------------------|
|-------------|--------------|-----------------|-------------------|

___ ____ _____ ___ ___
| | | | |_| |_|_|_| | | | | _ | |
| | | | | | | | | | | | | | |-| | |
|-----------------|----------------|-------------|-----------------|
|-----------------|----------------|-------------|-----------------|
|-----------2-----|----------------|-----------0-|-2----0-2-0------|
|-2---4-----------|-4--------0-2-3-|-4-----4-----|-------//---4--|
|--/-------------|----0-2-4-------|-------------|--------H-P------|
|---H-------------|----------------|-------------|-----------------|

___ __ _____ ___ _
| |_| | | | | | | |_| |_| | |_|
| | | | | | /| | | | | | | | | /| | |
|---------------|----------------|---------------|-----------------|
|---------------|----------------|---------------|-----------------|
|-0-------------|----------------|---------------|-----------------|
|-------0-2-0---|----0-----------|-------2-------|---0-2------2-4--|
|--------/-----|-2-----------2--|-0---------0-2-|-4---------------|
|---------H-----|----------------|---------------|-----------------|

_____ _____ ___ ___
|_|_|_| |_|_|_| | | | | | | |
| | | | | | | | | | | | | | |
|-----------------|---------------|---------------|----------------|
|-----------------|---------------|---------------|----------------|
|-0-----0---------|---------------|---------------|----------------|
|---4-2---4-2-0---|-0-------------|---------------|-0--------------|
|---------------4-|-----0--2------|-0-------------|----------------|
|-----------------|------/-------|-----0--2------|----------------|
H /
H

D G
I'm waiting tonight for you to tell me
A G D
Do you still love me and will you remain
D G
My heart is breaking with each passing hour
A D
Please don't let me love you in vain

A G D
I used to think your love would always save me
A D
And that you'd always stay right by my side
B Em A
But I can see a change coming over you
A
And the tears I cried just can't hide no

D G
I'm waiting tonight for you to tell me
A G D
Do you still love me and will you remain
D G
My heart is breaking with each passing hour
A D
Please don't let me love you in vain

SOLO (fiddle then banjo)
|D |D |G |G |A |A |G |D |D |
|D |D |G |G |A |A |A |D |D |

A G D
I can't pretend that love is just a passtime
A D
And that you never meant to be with me
B Em A
So darling please don't leave me all alone
A
So run it by your memory

D G
I'm waiting tonight for you to tell me
A G D
Do you still love me and will you remain
D G
My heart is breaking with each passing hour
A D
Please don't let me love you in vain
A D
So please don't let me love you in vain

CODA

____ __ _____ _____ _____ _____ _____ ____
| |_| | | |_|_|_| |_|_|_| |_|_|_| |_|_|_| |_|_|_| |_| |
| | | | | | | | | | | | | | | | | | | | | | | | | | | |
|-------------|-----------------|---------------5-|-7-5---7-5------|
|-------------|-----------------|---------5-7-8---|-----7-----7--5-|
|-------------|-----------------|-------6----/---|------------/--|
|-0--0-0------|-----2-5---5-----|-5-5-7-------H---|-------------S--|
|--------4--2-|-0-4--/-7---0-7-|-----------------|----------------|
|-------------|-------S---------|-----------------|----------------|

_______
| |__| | | |
| | | | | |
|-----------------------|------------------2-----------------------|
|-3---------------------|------------------3-----------------------|
|---------2-------0-----|------------------2-----------------------|
|------------4----------|----4-------------0-----------------------|
|-----------------------|------------------------------------------|
|-----------------------|------------------------------------------|

TAB NOTES
H = hammer on
P = pull off
S = slide

/| = eighth note rest

Išsakyk savo nuomonę!

Alison Krauss dainos

 

Mes Facebook'e

 

 

Susisiekime!| Reklama| Naudojimosi taisyklės|
Sprendimas: UAB Interprekyba
© Dainos.lt 2010.